ISO-10303-21;
HEADER;
/* Generated by software containing ST-Developer
 * from STEP Tools, Inc. (www.steptools.com) 
 */
/* OPTION: using custom schema-name function */

FILE_DESCRIPTION(
/* description */ (''),
/* implementation_level */ '2;1');

FILE_NAME(
/* name */ '100095315ugm000_b.stp',
/* time_stamp */ '2017-10-27T15:18:36+02:00',
/* author */ (''),
/* organization */ (''),
/* preprocessor_version */ 'ST-DEVELOPER v16',
/* originating_system */ 'SIEMENS PLM Software NX 10.0',
/* authorisation */ '');

FILE_SCHEMA (('AUTOMOTIVE_DESIGN { 1 0 10303 214 3 1 1 1 }'));
ENDSEC;

DATA;
#10=GEOMETRICALLY_BOUNDED_WIREFRAME_SHAPE_REPRESENTATION(
'100095315ugm000_b-None',(#33),#579);
#11=PROPERTY_DEFINITION_REPRESENTATION(#15,#13);
#12=PROPERTY_DEFINITION_REPRESENTATION(#16,#14);
#13=REPRESENTATION('',(#17),#579);
#14=REPRESENTATION('',(#18),#579);
#15=PROPERTY_DEFINITION('pmi validation property','',#23);
#16=PROPERTY_DEFINITION('pmi validation property','',#23);
#17=VALUE_REPRESENTATION_ITEM('number of annotations',COUNT_MEASURE(0.));
#18=VALUE_REPRESENTATION_ITEM('number of views',COUNT_MEASURE(0.));
#19=SHAPE_REPRESENTATION_RELATIONSHIP('None',
'relationship between 100095315ugm000_b-None and 100095315ugm000_b-Non
e',#32,#21);
#20=SHAPE_REPRESENTATION_RELATIONSHIP('None',
'relationship between 100095315ugm000_b-None and 100095315ugm000_b-Non
e',#32,#10);
#21=ADVANCED_BREP_SHAPE_REPRESENTATION('100095315ugm000_b-None',(#153),
#579);
#22=SHAPE_DEFINITION_REPRESENTATION(#23,#32);
#23=PRODUCT_DEFINITION_SHAPE('','',#24);
#24=PRODUCT_DEFINITION(' ','',#26,#25);
#25=PRODUCT_DEFINITION_CONTEXT('part definition',#31,'design');
#26=PRODUCT_DEFINITION_FORMATION_WITH_SPECIFIED_SOURCE(' ',' ',#28,
 .NOT_KNOWN.);
#27=PRODUCT_RELATED_PRODUCT_CATEGORY('part','',(#28));
#28=PRODUCT('100095315ugm000_b','100095315ugm000_b',' ',(#29));
#29=PRODUCT_CONTEXT(' ',#31,'mechanical');
#30=APPLICATION_PROTOCOL_DEFINITION('international standard',
'automotive_design',2010,#31);
#31=APPLICATION_CONTEXT(
'core data for automotive mechanical design processes');
#32=SHAPE_REPRESENTATION('100095315ugm000_b-None',(#389),#579);
#33=GEOMETRIC_CURVE_SET('None',(#501));
#34=OVER_RIDING_STYLED_ITEM('',(#365),#204,#362);
#35=OVER_RIDING_STYLED_ITEM('',(#366),#205,#362);
#36=OVER_RIDING_STYLED_ITEM('',(#367),#206,#362);
#37=OVER_RIDING_STYLED_ITEM('',(#368),#207,#362);
#38=OVER_RIDING_STYLED_ITEM('',(#369),#208,#362);
#39=OVER_RIDING_STYLED_ITEM('',(#370),#209,#362);
#40=OVER_RIDING_STYLED_ITEM('',(#371),#210,#362);
#41=OVER_RIDING_STYLED_ITEM('',(#372),#211,#362);
#42=OVER_RIDING_STYLED_ITEM('',(#373),#212,#362);
#43=OVER_RIDING_STYLED_ITEM('',(#374),#213,#362);
#44=OVER_RIDING_STYLED_ITEM('',(#375),#214,#362);
#45=OVER_RIDING_STYLED_ITEM('',(#376),#215,#362);
#46=OVER_RIDING_STYLED_ITEM('',(#377),#216,#362);
#47=OVER_RIDING_STYLED_ITEM('',(#378),#217,#362);
#48=OVER_RIDING_STYLED_ITEM('',(#379),#218,#362);
#49=OVER_RIDING_STYLED_ITEM('',(#380),#219,#362);
#50=OVER_RIDING_STYLED_ITEM('',(#381),#220,#362);
#51=OVER_RIDING_STYLED_ITEM('',(#382),#221,#362);
#52=OVER_RIDING_STYLED_ITEM('',(#383),#222,#362);
#53=SURFACE_STYLE_USAGE(.BOTH.,#73);
#54=SURFACE_STYLE_USAGE(.BOTH.,#74);
#55=SURFACE_STYLE_USAGE(.BOTH.,#75);
#56=SURFACE_STYLE_USAGE(.BOTH.,#76);
#57=SURFACE_STYLE_USAGE(.BOTH.,#77);
#58=SURFACE_STYLE_USAGE(.BOTH.,#78);
#59=SURFACE_STYLE_USAGE(.BOTH.,#79);
#60=SURFACE_STYLE_USAGE(.BOTH.,#80);
#61=SURFACE_STYLE_USAGE(.BOTH.,#81);
#62=SURFACE_STYLE_USAGE(.BOTH.,#82);
#63=SURFACE_STYLE_USAGE(.BOTH.,#83);
#64=SURFACE_STYLE_USAGE(.BOTH.,#84);
#65=SURFACE_STYLE_USAGE(.BOTH.,#85);
#66=SURFACE_STYLE_USAGE(.BOTH.,#86);
#67=SURFACE_STYLE_USAGE(.BOTH.,#87);
#68=SURFACE_STYLE_USAGE(.BOTH.,#88);
#69=SURFACE_STYLE_USAGE(.BOTH.,#89);
#70=SURFACE_STYLE_USAGE(.BOTH.,#90);
#71=SURFACE_STYLE_USAGE(.BOTH.,#91);
#72=SURFACE_STYLE_USAGE(.BOTH.,#92);
#73=SURFACE_SIDE_STYLE('',(#93));
#74=SURFACE_SIDE_STYLE('',(#94));
#75=SURFACE_SIDE_STYLE('',(#95));
#76=SURFACE_SIDE_STYLE('',(#96));
#77=SURFACE_SIDE_STYLE('',(#97));
#78=SURFACE_SIDE_STYLE('',(#98));
#79=SURFACE_SIDE_STYLE('',(#99));
#80=SURFACE_SIDE_STYLE('',(#100));
#81=SURFACE_SIDE_STYLE('',(#101));
#82=SURFACE_SIDE_STYLE('',(#102));
#83=SURFACE_SIDE_STYLE('',(#103));
#84=SURFACE_SIDE_STYLE('',(#104));
#85=SURFACE_SIDE_STYLE('',(#105));
#86=SURFACE_SIDE_STYLE('',(#106));
#87=SURFACE_SIDE_STYLE('',(#107));
#88=SURFACE_SIDE_STYLE('',(#108));
#89=SURFACE_SIDE_STYLE('',(#109));
#90=SURFACE_SIDE_STYLE('',(#110));
#91=SURFACE_SIDE_STYLE('',(#111));
#92=SURFACE_SIDE_STYLE('',(#112));
#93=SURFACE_STYLE_FILL_AREA(#113);
#94=SURFACE_STYLE_FILL_AREA(#114);
#95=SURFACE_STYLE_FILL_AREA(#115);
#96=SURFACE_STYLE_FILL_AREA(#116);
#97=SURFACE_STYLE_FILL_AREA(#117);
#98=SURFACE_STYLE_FILL_AREA(#118);
#99=SURFACE_STYLE_FILL_AREA(#119);
#100=SURFACE_STYLE_FILL_AREA(#120);
#101=SURFACE_STYLE_FILL_AREA(#121);
#102=SURFACE_STYLE_FILL_AREA(#122);
#103=SURFACE_STYLE_FILL_AREA(#123);
#104=SURFACE_STYLE_FILL_AREA(#124);
#105=SURFACE_STYLE_FILL_AREA(#125);
#106=SURFACE_STYLE_FILL_AREA(#126);
#107=SURFACE_STYLE_FILL_AREA(#127);
#108=SURFACE_STYLE_FILL_AREA(#128);
#109=SURFACE_STYLE_FILL_AREA(#129);
#110=SURFACE_STYLE_FILL_AREA(#130);
#111=SURFACE_STYLE_FILL_AREA(#131);
#112=SURFACE_STYLE_FILL_AREA(#132);
#113=FILL_AREA_STYLE('',(#133));
#114=FILL_AREA_STYLE('',(#134));
#115=FILL_AREA_STYLE('',(#135));
#116=FILL_AREA_STYLE('',(#136));
#117=FILL_AREA_STYLE('',(#137));
#118=FILL_AREA_STYLE('',(#138));
#119=FILL_AREA_STYLE('',(#139));
#120=FILL_AREA_STYLE('',(#140));
#121=FILL_AREA_STYLE('',(#141));
#122=FILL_AREA_STYLE('',(#142));
#123=FILL_AREA_STYLE('',(#143));
#124=FILL_AREA_STYLE('',(#144));
#125=FILL_AREA_STYLE('',(#145));
#126=FILL_AREA_STYLE('',(#146));
#127=FILL_AREA_STYLE('',(#147));
#128=FILL_AREA_STYLE('',(#148));
#129=FILL_AREA_STYLE('',(#149));
#130=FILL_AREA_STYLE('',(#150));
#131=FILL_AREA_STYLE('',(#151));
#132=FILL_AREA_STYLE('',(#152));
#133=FILL_AREA_STYLE_COLOUR('',#387);
#134=FILL_AREA_STYLE_COLOUR('',#388);
#135=FILL_AREA_STYLE_COLOUR('',#388);
#136=FILL_AREA_STYLE_COLOUR('',#388);
#137=FILL_AREA_STYLE_COLOUR('',#388);
#138=FILL_AREA_STYLE_COLOUR('',#388);
#139=FILL_AREA_STYLE_COLOUR('',#388);
#140=FILL_AREA_STYLE_COLOUR('',#388);
#141=FILL_AREA_STYLE_COLOUR('',#388);
#142=FILL_AREA_STYLE_COLOUR('',#388);
#143=FILL_AREA_STYLE_COLOUR('',#388);
#144=FILL_AREA_STYLE_COLOUR('',#388);
#145=FILL_AREA_STYLE_COLOUR('',#388);
#146=FILL_AREA_STYLE_COLOUR('',#388);
#147=FILL_AREA_STYLE_COLOUR('',#388);
#148=FILL_AREA_STYLE_COLOUR('',#388);
#149=FILL_AREA_STYLE_COLOUR('',#388);
#150=FILL_AREA_STYLE_COLOUR('',#388);
#151=FILL_AREA_STYLE_COLOUR('',#388);
#152=FILL_AREA_STYLE_COLOUR('',#388);
#153=MANIFOLD_SOLID_BREP('',#154);
#154=CLOSED_SHELL('',(#204,#205,#206,#207,#208,#209,#210,#211,#212,#213,
#214,#215,#216,#217,#218,#219,#220,#221,#222));
#155=SPHERICAL_SURFACE('',#425,0.249999999999973);
#156=VERTEX_LOOP('',#321);
#157=(
BOUNDED_SURFACE()
B_SPLINE_SURFACE(2,2,((#546,#547,#548),(#549,#550,#551),(#552,#553,#554),
(#555,#556,#557),(#558,#559,#560),(#561,#562,#563),(#564,#565,#566)),
 .UNSPECIFIED.,.T.,.F.,.F.)
B_SPLINE_SURFACE_WITH_KNOTS((1,2,2,2,2,1),(3,3),(-0.333333333333333,0.,
0.333333333333333,0.666666666666667,1.,1.33333333333333),(0.,1.),
 .UNSPECIFIED.)
GEOMETRIC_REPRESENTATION_ITEM()
RATIONAL_B_SPLINE_SURFACE(((1.,0.786952659777442,1.),(0.5,0.393476329888721,
0.5),(1.,0.786952659777442,1.),(0.5,0.393476329888721,0.5),(1.,0.786952659777442,
1.),(0.5,0.393476329888721,0.5),(1.,0.786952659777442,1.)))
REPRESENTATION_ITEM('')
SURFACE()
);
#158=CONICAL_SURFACE('',#395,1.89999999999999,44.9999999999997);
#159=CYLINDRICAL_SURFACE('',#393,1.89999999999999);
#160=CYLINDRICAL_SURFACE('',#397,2.84999999999996);
#161=CYLINDRICAL_SURFACE('',#401,2.39999999999997);
#162=CYLINDRICAL_SURFACE('',#405,2.60000000001335);
#163=CYLINDRICAL_SURFACE('',#409,2.39999999999997);
#164=CYLINDRICAL_SURFACE('',#413,2.14999999999999);
#165=CYLINDRICAL_SURFACE('',#417,1.39999999999997);
#166=CYLINDRICAL_SURFACE('',#420,1.19999999999997);
#167=CYLINDRICAL_SURFACE('',#424,0.24999999999998);
#168=FACE_BOUND('',#232,.T.);
#169=FACE_BOUND('',#233,.T.);
#170=FACE_BOUND('',#234,.T.);
#171=FACE_BOUND('',#235,.T.);
#172=FACE_BOUND('',#236,.T.);
#173=FACE_BOUND('',#237,.T.);
#174=FACE_BOUND('',#238,.T.);
#175=FACE_BOUND('',#239,.T.);
#176=FACE_BOUND('',#240,.T.);
#177=FACE_BOUND('',#241,.T.);
#178=FACE_BOUND('',#242,.T.);
#179=FACE_BOUND('',#243,.T.);
#180=FACE_BOUND('',#244,.T.);
#181=FACE_BOUND('',#245,.T.);
#182=FACE_BOUND('',#246,.T.);
#183=FACE_BOUND('',#247,.T.);
#184=FACE_BOUND('',#248,.T.);
#185=FACE_BOUND('',#249,.T.);
#186=FACE_BOUND('',#250,.T.);
#187=FACE_BOUND('',#251,.T.);
#188=FACE_BOUND('',#252,.T.);
#189=FACE_BOUND('',#253,.T.);
#190=FACE_BOUND('',#254,.T.);
#191=FACE_BOUND('',#255,.T.);
#192=FACE_BOUND('',#256,.T.);
#193=FACE_BOUND('',#257,.T.);
#194=FACE_BOUND('',#258,.T.);
#195=FACE_BOUND('',#259,.T.);
#196=FACE_BOUND('',#260,.T.);
#197=FACE_BOUND('',#261,.T.);
#198=FACE_BOUND('',#262,.T.);
#199=FACE_BOUND('',#263,.T.);
#200=FACE_BOUND('',#264,.T.);
#201=FACE_BOUND('',#265,.T.);
#202=FACE_BOUND('',#156,.T.);
#203=FACE_BOUND('',#266,.T.);
#204=ADVANCED_FACE('',(#230),#223,.T.);
#205=ADVANCED_FACE('',(#168,#169),#159,.T.);
#206=ADVANCED_FACE('',(#170,#171),#158,.T.);
#207=ADVANCED_FACE('',(#172,#173),#160,.T.);
#208=ADVANCED_FACE('',(#174,#175),#224,.T.);
#209=ADVANCED_FACE('',(#176,#177),#161,.T.);
#210=ADVANCED_FACE('',(#178,#179),#225,.T.);
#211=ADVANCED_FACE('',(#180,#181),#162,.T.);
#212=ADVANCED_FACE('',(#182,#183),#226,.T.);
#213=ADVANCED_FACE('',(#184,#185),#163,.T.);
#214=ADVANCED_FACE('',(#186,#187),#227,.T.);
#215=ADVANCED_FACE('',(#188,#189),#164,.F.);
#216=ADVANCED_FACE('',(#190,#191),#228,.T.);
#217=ADVANCED_FACE('',(#192,#193),#165,.T.);
#218=ADVANCED_FACE('',(#194,#195),#157,.T.);
#219=ADVANCED_FACE('',(#196,#197),#166,.F.);
#220=ADVANCED_FACE('',(#198,#199),#229,.T.);
#221=ADVANCED_FACE('',(#200,#201),#167,.T.);
#222=ADVANCED_FACE('',(#202,#203),#155,.T.);
#223=PLANE('',#391);
#224=PLANE('',#399);
#225=PLANE('',#403);
#226=PLANE('',#407);
#227=PLANE('',#411);
#228=PLANE('',#415);
#229=PLANE('',#422);
#230=FACE_OUTER_BOUND('',#231,.T.);
#231=EDGE_LOOP('',(#267));
#232=EDGE_LOOP('',(#268));
#233=EDGE_LOOP('',(#269));
#234=EDGE_LOOP('',(#270));
#235=EDGE_LOOP('',(#271));
#236=EDGE_LOOP('',(#272));
#237=EDGE_LOOP('',(#273));
#238=EDGE_LOOP('',(#274));
#239=EDGE_LOOP('',(#275));
#240=EDGE_LOOP('',(#276));
#241=EDGE_LOOP('',(#277));
#242=EDGE_LOOP('',(#278));
#243=EDGE_LOOP('',(#279));
#244=EDGE_LOOP('',(#280));
#245=EDGE_LOOP('',(#281));
#246=EDGE_LOOP('',(#282));
#247=EDGE_LOOP('',(#283));
#248=EDGE_LOOP('',(#284));
#249=EDGE_LOOP('',(#285));
#250=EDGE_LOOP('',(#286));
#251=EDGE_LOOP('',(#287));
#252=EDGE_LOOP('',(#288));
#253=EDGE_LOOP('',(#289));
#254=EDGE_LOOP('',(#290));
#255=EDGE_LOOP('',(#291));
#256=EDGE_LOOP('',(#292));
#257=EDGE_LOOP('',(#293));
#258=EDGE_LOOP('',(#294));
#259=EDGE_LOOP('',(#295));
#260=EDGE_LOOP('',(#296));
#261=EDGE_LOOP('',(#297));
#262=EDGE_LOOP('',(#298));
#263=EDGE_LOOP('',(#299));
#264=EDGE_LOOP('',(#300));
#265=EDGE_LOOP('',(#301));
#266=EDGE_LOOP('',(#302));
#267=ORIENTED_EDGE('',*,*,#322,.T.);
#268=ORIENTED_EDGE('',*,*,#323,.F.);
#269=ORIENTED_EDGE('',*,*,#322,.F.);
#270=ORIENTED_EDGE('',*,*,#324,.F.);
#271=ORIENTED_EDGE('',*,*,#323,.T.);
#272=ORIENTED_EDGE('',*,*,#325,.F.);
#273=ORIENTED_EDGE('',*,*,#324,.T.);
#274=ORIENTED_EDGE('',*,*,#326,.F.);
#275=ORIENTED_EDGE('',*,*,#325,.T.);
#276=ORIENTED_EDGE('',*,*,#327,.F.);
#277=ORIENTED_EDGE('',*,*,#326,.T.);
#278=ORIENTED_EDGE('',*,*,#327,.T.);
#279=ORIENTED_EDGE('',*,*,#328,.T.);
#280=ORIENTED_EDGE('',*,*,#329,.F.);
#281=ORIENTED_EDGE('',*,*,#328,.F.);
#282=ORIENTED_EDGE('',*,*,#330,.F.);
#283=ORIENTED_EDGE('',*,*,#329,.T.);
#284=ORIENTED_EDGE('',*,*,#331,.F.);
#285=ORIENTED_EDGE('',*,*,#330,.T.);
#286=ORIENTED_EDGE('',*,*,#332,.T.);
#287=ORIENTED_EDGE('',*,*,#331,.T.);
#288=ORIENTED_EDGE('',*,*,#333,.T.);
#289=ORIENTED_EDGE('',*,*,#332,.F.);
#290=ORIENTED_EDGE('',*,*,#334,.T.);
#291=ORIENTED_EDGE('',*,*,#333,.F.);
#292=ORIENTED_EDGE('',*,*,#335,.T.);
#293=ORIENTED_EDGE('',*,*,#334,.F.);
#294=ORIENTED_EDGE('',*,*,#336,.F.);
#295=ORIENTED_EDGE('',*,*,#335,.F.);
#296=ORIENTED_EDGE('',*,*,#337,.F.);
#297=ORIENTED_EDGE('',*,*,#336,.T.);
#298=ORIENTED_EDGE('',*,*,#338,.F.);
#299=ORIENTED_EDGE('',*,*,#337,.T.);
#300=ORIENTED_EDGE('',*,*,#339,.T.);
#301=ORIENTED_EDGE('',*,*,#338,.T.);
#302=ORIENTED_EDGE('',*,*,#339,.F.);
#303=VERTEX_POINT('',#503);
#304=VERTEX_POINT('',#506);
#305=VERTEX_POINT('',#509);
#306=VERTEX_POINT('',#512);
#307=VERTEX_POINT('',#515);
#308=VERTEX_POINT('',#518);
#309=VERTEX_POINT('',#521);
#310=VERTEX_POINT('',#524);
#311=VERTEX_POINT('',#527);
#312=VERTEX_POINT('',#530);
#313=VERTEX_POINT('',#533);
#314=VERTEX_POINT('',#536);
#315=VERTEX_POINT('',#539);
#316=VERTEX_POINT('',#542);
#317=VERTEX_POINT('',#545);
#318=VERTEX_POINT('',#568);
#319=VERTEX_POINT('',#571);
#320=VERTEX_POINT('',#574);
#321=VERTEX_POINT('',#576);
#322=EDGE_CURVE('',#303,#303,#340,.T.);
#323=EDGE_CURVE('',#304,#304,#341,.T.);
#324=EDGE_CURVE('',#305,#305,#342,.T.);
#325=EDGE_CURVE('',#306,#306,#343,.T.);
#326=EDGE_CURVE('',#307,#307,#344,.T.);
#327=EDGE_CURVE('',#308,#308,#345,.T.);
#328=EDGE_CURVE('',#309,#309,#346,.T.);
#329=EDGE_CURVE('',#310,#310,#347,.T.);
#330=EDGE_CURVE('',#311,#311,#348,.T.);
#331=EDGE_CURVE('',#312,#312,#349,.T.);
#332=EDGE_CURVE('',#313,#313,#350,.T.);
#333=EDGE_CURVE('',#314,#314,#351,.T.);
#334=EDGE_CURVE('',#315,#315,#352,.T.);
#335=EDGE_CURVE('',#316,#316,#353,.T.);
#336=EDGE_CURVE('',#317,#317,#354,.T.);
#337=EDGE_CURVE('',#318,#318,#355,.T.);
#338=EDGE_CURVE('',#319,#319,#356,.T.);
#339=EDGE_CURVE('',#320,#320,#357,.T.);
#340=CIRCLE('',#390,1.89999999999999);
#341=CIRCLE('',#392,1.89999999999998);
#342=CIRCLE('',#394,2.84999999999996);
#343=CIRCLE('',#396,2.84999999999996);
#344=CIRCLE('',#398,2.39999999999996);
#345=CIRCLE('',#400,2.39999999999998);
#346=CIRCLE('',#402,2.60000000001334);
#347=CIRCLE('',#404,2.60000000001335);
#348=CIRCLE('',#406,2.39999999999998);
#349=CIRCLE('',#408,2.39999999999998);
#350=CIRCLE('',#410,2.14999999999997);
#351=CIRCLE('',#412,2.14999999999998);
#352=CIRCLE('',#414,1.39999999999998);
#353=CIRCLE('',#416,1.39999999999997);
#354=CIRCLE('',#418,1.20000000000275);
#355=CIRCLE('',#419,1.19999999999995);
#356=CIRCLE('',#421,0.249999999999982);
#357=CIRCLE('',#423,0.249999999999964);
#358=INVISIBILITY((#359));
#359=PRESENTATION_LAYER_ASSIGNMENT('130','Layer 130',(#501));
#360=PRESENTATION_LAYER_ASSIGNMENT('1','Layer 1',(#153));
#361=STYLED_ITEM('',(#363),#501);
#362=STYLED_ITEM('',(#364),#153);
#363=PRESENTATION_STYLE_ASSIGNMENT((#384));
#364=PRESENTATION_STYLE_ASSIGNMENT((#53));
#365=PRESENTATION_STYLE_ASSIGNMENT((#54));
#366=PRESENTATION_STYLE_ASSIGNMENT((#55));
#367=PRESENTATION_STYLE_ASSIGNMENT((#56));
#368=PRESENTATION_STYLE_ASSIGNMENT((#57));
#369=PRESENTATION_STYLE_ASSIGNMENT((#58));
#370=PRESENTATION_STYLE_ASSIGNMENT((#59));
#371=PRESENTATION_STYLE_ASSIGNMENT((#60));
#372=PRESENTATION_STYLE_ASSIGNMENT((#61));
#373=PRESENTATION_STYLE_ASSIGNMENT((#62));
#374=PRESENTATION_STYLE_ASSIGNMENT((#63));
#375=PRESENTATION_STYLE_ASSIGNMENT((#64));
#376=PRESENTATION_STYLE_ASSIGNMENT((#65));
#377=PRESENTATION_STYLE_ASSIGNMENT((#66));
#378=PRESENTATION_STYLE_ASSIGNMENT((#67));
#379=PRESENTATION_STYLE_ASSIGNMENT((#68));
#380=PRESENTATION_STYLE_ASSIGNMENT((#69));
#381=PRESENTATION_STYLE_ASSIGNMENT((#70));
#382=PRESENTATION_STYLE_ASSIGNMENT((#71));
#383=PRESENTATION_STYLE_ASSIGNMENT((#72));
#384=POINT_STYLE('',#385,POSITIVE_LENGTH_MEASURE(3.),#386);
#385=PRE_DEFINED_POINT_MARKER_SYMBOL('plus');
#386=COLOUR_RGB('Medium Maroon',0.6,0.4,0.4);
#387=COLOUR_RGB('RAL7032',0.849988555733577,0.819989318684672,0.629999237048905);
#388=COLOUR_RGB('Strong Gold',0.670572976272221,0.596063172350652,0.321553368429084);
#389=AXIS2_PLACEMENT_3D('',#500,#426,#427);
#390=AXIS2_PLACEMENT_3D('',#502,#428,#429);
#391=AXIS2_PLACEMENT_3D('',#504,#430,#431);
#392=AXIS2_PLACEMENT_3D('',#505,#432,#433);
#393=AXIS2_PLACEMENT_3D('',#507,#434,#435);
#394=AXIS2_PLACEMENT_3D('',#508,#436,#437);
#395=AXIS2_PLACEMENT_3D('',#510,#438,#439);
#396=AXIS2_PLACEMENT_3D('',#511,#440,#441);
#397=AXIS2_PLACEMENT_3D('',#513,#442,#443);
#398=AXIS2_PLACEMENT_3D('',#514,#444,#445);
#399=AXIS2_PLACEMENT_3D('',#516,#446,#447);
#400=AXIS2_PLACEMENT_3D('',#517,#448,#449);
#401=AXIS2_PLACEMENT_3D('',#519,#450,#451);
#402=AXIS2_PLACEMENT_3D('',#520,#452,#453);
#403=AXIS2_PLACEMENT_3D('',#522,#454,#455);
#404=AXIS2_PLACEMENT_3D('',#523,#456,#457);
#405=AXIS2_PLACEMENT_3D('',#525,#458,#459);
#406=AXIS2_PLACEMENT_3D('',#526,#460,#461);
#407=AXIS2_PLACEMENT_3D('',#528,#462,#463);
#408=AXIS2_PLACEMENT_3D('',#529,#464,#465);
#409=AXIS2_PLACEMENT_3D('',#531,#466,#467);
#410=AXIS2_PLACEMENT_3D('',#532,#468,#469);
#411=AXIS2_PLACEMENT_3D('',#534,#470,#471);
#412=AXIS2_PLACEMENT_3D('',#535,#472,#473);
#413=AXIS2_PLACEMENT_3D('',#537,#474,#475);
#414=AXIS2_PLACEMENT_3D('',#538,#476,#477);
#415=AXIS2_PLACEMENT_3D('',#540,#478,#479);
#416=AXIS2_PLACEMENT_3D('',#541,#480,#481);
#417=AXIS2_PLACEMENT_3D('',#543,#482,#483);
#418=AXIS2_PLACEMENT_3D('',#544,#484,#485);
#419=AXIS2_PLACEMENT_3D('',#567,#486,#487);
#420=AXIS2_PLACEMENT_3D('',#569,#488,#489);
#421=AXIS2_PLACEMENT_3D('',#570,#490,#491);
#422=AXIS2_PLACEMENT_3D('',#572,#492,#493);
#423=AXIS2_PLACEMENT_3D('',#573,#494,#495);
#424=AXIS2_PLACEMENT_3D('',#575,#496,#497);
#425=AXIS2_PLACEMENT_3D('',#577,#498,#499);
#426=DIRECTION('',(0.,0.,1.));
#427=DIRECTION('',(1.,0.,0.));
#428=DIRECTION('',(1.16577884755303E-14,-1.,0.));
#429=DIRECTION('',(-1.,-1.46081976924363E-14,0.));
#430=DIRECTION('',(-6.12323399573677E-17,-1.,0.));
#431=DIRECTION('',(-1.,6.07153216591882E-17,0.));
#432=DIRECTION('',(-5.28033067777472E-15,1.,9.25185853854296E-15));
#433=DIRECTION('',(-1.,0.,0.));
#434=DIRECTION('',(-6.3162254577982E-15,1.,9.25185853854296E-15));
#435=DIRECTION('',(-1.,-6.39108649044091E-15,0.));
#436=DIRECTION('',(6.12323399573677E-17,1.,0.));
#437=DIRECTION('',(-1.,0.,0.));
#438=DIRECTION('',(6.12323399573677E-17,1.,0.));
#439=DIRECTION('',(-1.,-9.05886138967037E-15,0.));
#440=DIRECTION('',(6.12323399573677E-17,1.,0.));
#441=DIRECTION('',(-1.,0.,0.));
#442=DIRECTION('',(1.17629173258362E-14,1.,0.));
#443=DIRECTION('',(-1.,1.18691606251046E-14,0.));
#444=DIRECTION('',(6.12323399573677E-17,1.,0.));
#445=DIRECTION('',(-1.,0.,-4.33680868994209E-15));
#446=DIRECTION('',(6.12323399573677E-17,1.,0.));
#447=DIRECTION('',(-1.,6.15826833971767E-17,0.));
#448=DIRECTION('',(6.12323399573677E-17,1.,0.));
#449=DIRECTION('',(-1.,0.,0.));
#450=DIRECTION('',(6.12323399573677E-17,1.,0.));
#451=DIRECTION('',(-1.,0.,3.25260651745655E-15));
#452=DIRECTION('',(-6.12323399573677E-17,-1.,0.));
#453=DIRECTION('',(-1.,0.,-2.0016040107322E-15));
#454=DIRECTION('',(-6.12323399573677E-17,-1.,0.));
#455=DIRECTION('',(-1.,6.07153216591882E-17,0.));
#456=DIRECTION('',(6.12323399573677E-17,1.,0.));
#457=DIRECTION('',(-1.,0.,-2.66880534764292E-15));
#458=DIRECTION('',(1.52483331777831E-14,1.,-1.06752213906266E-14));
#459=DIRECTION('',(-1.,1.53456307489468E-14,2.66880534764292E-15));
#460=DIRECTION('',(1.71943037076298E-14,1.,1.78052100591073E-14));
#461=DIRECTION('',(-1.,2.31296463463576E-14,0.));
#462=DIRECTION('',(6.12323399573677E-17,1.,0.));
#463=DIRECTION('',(-1.,6.07153216591882E-17,0.));
#464=DIRECTION('',(1.12544071313892E-14,1.,9.00501476239237E-29));
#465=DIRECTION('',(-1.,0.,-7.95081593156042E-15));
#466=DIRECTION('',(9.3509071534045E-15,1.,1.60901887626834E-14));
#467=DIRECTION('',(-1.,9.39641882820782E-15,0.));
#468=DIRECTION('',(9.5014121443249E-15,-1.,-9.9377916608971E-15));
#469=DIRECTION('',(-1.,0.,0.));
#470=DIRECTION('',(6.12323399573677E-17,1.,0.));
#471=DIRECTION('',(-1.,6.24500451351651E-17,0.));
#472=DIRECTION('',(-1.28910066100141E-14,-1.,0.));
#473=DIRECTION('',(-1.,0.,0.));
#474=DIRECTION('',(6.12323399573677E-17,1.,0.));
#475=DIRECTION('',(-1.,0.,-4.43766470598721E-15));
#476=DIRECTION('',(-2.35580159299084E-14,-1.,8.96496787569571E-29));
#477=DIRECTION('',(-1.,3.96508223080419E-14,3.71726459137893E-15));
#478=DIRECTION('',(6.12323399573677E-17,1.,0.));
#479=DIRECTION('',(-1.,6.07153216591882E-17,0.));
#480=DIRECTION('',(-6.12323399573677E-17,-1.,0.));
#481=DIRECTION('',(-1.,0.,5.57589688706843E-15));
#482=DIRECTION('',(-9.9779803998898E-15,1.,2.09476042382103E-14));
#483=DIRECTION('',(-1.,-9.91270557701054E-15,-5.57589688706843E-15));
#484=DIRECTION('',(-1.98293994413041E-14,1.,-1.88683534880132E-14));
#485=DIRECTION('',(-1.,0.,-4.33680868993208E-15));
#486=DIRECTION('',(-2.29382471697042E-14,1.,-1.99857091342162E-14));
#487=DIRECTION('',(-1.,0.,5.05961013826588E-15));
#488=DIRECTION('',(6.12323399573677E-17,1.,0.));
#489=DIRECTION('',(-1.,0.,5.05961013826583E-15));
#490=DIRECTION('',(8.22999749047959E-14,1.,8.54650082837251E-14));
#491=DIRECTION('',(-1.,0.,-2.08166817117232E-14));
#492=DIRECTION('',(6.12323399573677E-17,1.,0.));
#493=DIRECTION('',(-1.,6.07153216591882E-17,0.));
#494=DIRECTION('',(8.21775102248751E-14,-1.,-8.54650082837214E-14));
#495=DIRECTION('',(-1.,0.,-2.08166817117247E-14));
#496=DIRECTION('',(4.94044778788595E-14,1.,8.54650082837228E-14));
#497=DIRECTION('',(-1.,4.85722573273545E-14,0.));
#498=DIRECTION('',(0.,0.999999999999998,0.));
#499=DIRECTION('',(-1.,0.,0.));
#500=CARTESIAN_POINT('',(0.,0.,0.));
#501=CARTESIAN_POINT('',(-1.2490009027033E-13,7.94999999999979,-6.45000000000015));
#502=CARTESIAN_POINT('',(-1.11022302462516E-13,-11.5500000000002,-6.45000000000016));
#503=CARTESIAN_POINT('',(-1.9000000000001,-11.5500000000002,-6.45000000000016));
#504=CARTESIAN_POINT('',(2.08999999999988,-11.5500000000002,-4.36000000000016));
#505=CARTESIAN_POINT('',(-1.2490009027033E-13,-5.55000000000022,-6.45000000000016));
#506=CARTESIAN_POINT('',(-1.90000000000011,-5.55000000000022,-6.45000000000016));
#507=CARTESIAN_POINT('',(-1.11022302462516E-13,-11.5500000000002,-6.45000000000018));
#508=CARTESIAN_POINT('',(-1.2490009027033E-13,-4.60000000000024,-6.45000000000016));
#509=CARTESIAN_POINT('',(-2.85000000000008,-4.60000000000024,-6.45000000000016));
#510=CARTESIAN_POINT('',(-1.2490009027033E-13,-5.55000000000019,-6.45000000000016));
#511=CARTESIAN_POINT('',(-1.2490009027033E-13,5.79999999999978,-6.45000000000016));
#512=CARTESIAN_POINT('',(-2.85000000000008,5.79999999999978,-6.45000000000016));
#513=CARTESIAN_POINT('',(-1.80411241501588E-13,-4.60000000000027,-6.45000000000016));
#514=CARTESIAN_POINT('',(-1.2490009027033E-13,5.79999999999978,-6.45000000000015));
#515=CARTESIAN_POINT('',(-2.40000000000009,5.79999999999978,-6.45000000000016));
#516=CARTESIAN_POINT('',(3.13499999999983,5.79999999999978,-9.58500000000012));
#517=CARTESIAN_POINT('',(-1.2490009027033E-13,7.94999999999979,-6.45000000000016));
#518=CARTESIAN_POINT('',(-2.4000000000001,7.94999999999979,-6.45000000000016));
#519=CARTESIAN_POINT('',(-1.2490009027033E-13,5.79999999999978,-6.45000000000016));
#520=CARTESIAN_POINT('',(-1.2490009027033E-13,7.94999999999979,-6.45000000000015));
#521=CARTESIAN_POINT('',(-2.60000000001346,7.94999999999979,-6.45000000000016));
#522=CARTESIAN_POINT('',(2.86000000001455,7.94999999999979,-3.58999999998548));
#523=CARTESIAN_POINT('',(-1.11022302462516E-13,10.5499999999998,-6.45000000000015));
#524=CARTESIAN_POINT('',(-2.60000000001346,10.5499999999998,-6.45000000000016));
#525=CARTESIAN_POINT('',(-1.2490009027033E-13,7.94999999999973,-6.45000000000015));
#526=CARTESIAN_POINT('',(-1.2490009027033E-13,10.5499999999997,-6.45000000000016));
#527=CARTESIAN_POINT('',(-2.4000000000001,10.5499999999998,-6.45000000000016));
#528=CARTESIAN_POINT('',(2.86000000001455,10.5499999999998,-9.31000000001483));
#529=CARTESIAN_POINT('',(-1.11022302462516E-13,17.4499999999998,-6.45000000000014));
#530=CARTESIAN_POINT('',(-2.4000000000001,17.4499999999998,-6.45000000000016));
#531=CARTESIAN_POINT('',(-1.52655665885959E-13,10.5499999999998,-6.45000000000021));
#532=CARTESIAN_POINT('',(-1.2490009027033E-13,17.4499999999998,-6.45000000000016));
#533=CARTESIAN_POINT('',(-2.1500000000001,17.4499999999998,-6.45000000000016));
#534=CARTESIAN_POINT('',(2.63999999999984,17.4499999999998,-9.09000000000013));
#535=CARTESIAN_POINT('',(-1.2490009027033E-13,11.3499999999998,-6.45000000000016));
#536=CARTESIAN_POINT('',(-2.1500000000001,11.3499999999998,-6.45000000000016));
#537=CARTESIAN_POINT('',(-1.11022302462516E-13,11.3499999999998,-6.45000000000015));
#538=CARTESIAN_POINT('',(-1.11022302462516E-13,11.3499999999997,-6.45000000000016));
#539=CARTESIAN_POINT('',(-1.40000000000009,11.3499999999997,-6.45000000000016));
#540=CARTESIAN_POINT('',(2.36499999999984,11.3499999999998,-8.81500000000013));
#541=CARTESIAN_POINT('',(-1.2490009027033E-13,16.6499999999998,-6.45000000000016));
#542=CARTESIAN_POINT('',(-1.40000000000009,16.6499999999998,-6.45000000000016));
#543=CARTESIAN_POINT('',(-9.71445146547012E-14,11.3499999999997,-6.4500000000002));
#544=CARTESIAN_POINT('',(-1.11022302462516E-13,16.9050844714548,-6.45000000000015));
#545=CARTESIAN_POINT('',(-1.20000000000286,16.9050844714548,-6.45000000000016));
#546=CARTESIAN_POINT('',(-1.40000000000012,16.6500000000002,-6.45000000000016));
#547=CARTESIAN_POINT('',(-1.39999999999981,16.8559476356539,-6.45000000000016));
#548=CARTESIAN_POINT('',(-1.20000000000287,16.9050844714548,-6.45000000000016));
#549=CARTESIAN_POINT('',(-1.40000000000012,16.6500000000002,-4.02512886940373));
#550=CARTESIAN_POINT('',(-1.39999999999981,16.8559476356539,-4.02512886940426));
#551=CARTESIAN_POINT('',(-1.20000000000287,16.9050844714548,-4.37153903091276));
#552=CARTESIAN_POINT('',(0.699999999999881,16.6500000000002,-5.23756443470194));
#553=CARTESIAN_POINT('',(0.699999999999729,16.8559476356539,-5.23756443470221));
#554=CARTESIAN_POINT('',(0.600000000001238,16.9050844714548,-5.41076951545646));
#555=CARTESIAN_POINT('',(2.79999999999987,16.6500000000002,-6.45000000000015));
#556=CARTESIAN_POINT('',(2.79999999999927,16.8559476356539,-6.45000000000016));
#557=CARTESIAN_POINT('',(2.40000000000536,16.9050844714548,-6.45000000000016));
#558=CARTESIAN_POINT('',(0.699999999999881,16.6500000000002,-7.66243556529837));
#559=CARTESIAN_POINT('',(0.699999999999729,16.8559476356539,-7.6624355652981));
#560=CARTESIAN_POINT('',(0.600000000001252,16.9050844714548,-7.48923048454386));
#561=CARTESIAN_POINT('',(-1.40000000000012,16.6500000000002,-8.87487113059658));
#562=CARTESIAN_POINT('',(-1.39999999999981,16.8559476356539,-8.87487113059605));
#563=CARTESIAN_POINT('',(-1.20000000000287,16.9050844714548,-8.52846096908756));
#564=CARTESIAN_POINT('',(-1.40000000000012,16.6500000000002,-6.45000000000016));
#565=CARTESIAN_POINT('',(-1.39999999999981,16.8559476356539,-6.45000000000016));
#566=CARTESIAN_POINT('',(-1.20000000000287,16.9050844714548,-6.45000000000016));
#567=CARTESIAN_POINT('',(-1.38777878078145E-13,11.3499999999997,-6.45000000000016));
#568=CARTESIAN_POINT('',(-1.20000000000009,11.3499999999997,-6.45000000000016));
#569=CARTESIAN_POINT('',(-1.2490009027033E-13,11.3499999999997,-6.45000000000016));
#570=CARTESIAN_POINT('',(-1.11022302462516E-13,11.3499999999998,-6.45000000000015));
#571=CARTESIAN_POINT('',(-0.250000000000093,11.3499999999998,-6.45000000000016));
#572=CARTESIAN_POINT('',(1.31999999999984,11.3499999999998,-7.77000000000012));
#573=CARTESIAN_POINT('',(-1.38777878078145E-13,16.5499999999998,-6.45000000000015));
#574=CARTESIAN_POINT('',(-0.250000000000103,16.5499999999998,-6.45000000000016));
#575=CARTESIAN_POINT('',(-2.35922392732846E-13,11.3499999999998,-6.45000000000038));
#576=CARTESIAN_POINT('',(-9.71445146547012E-14,16.7999999999998,-6.45000000000016));
#577=CARTESIAN_POINT('',(-1.2490009027033E-13,16.5499999999998,-6.45000000000016));
#578=MECHANICAL_DESIGN_GEOMETRIC_PRESENTATION_REPRESENTATION('',(#361,#362,
#34,#35,#36,#37,#38,#39,#40,#41,#42,#43,#44,#45,#46,#47,#48,#49,#50,#51,
#52),#579);
#579=(
GEOMETRIC_REPRESENTATION_CONTEXT(3)
GLOBAL_UNCERTAINTY_ASSIGNED_CONTEXT((#580))
GLOBAL_UNIT_ASSIGNED_CONTEXT((#586,#582,#581))
REPRESENTATION_CONTEXT('100095315ugm000_b','TOP_LEVEL_ASSEMBLY_PART')
);
#580=UNCERTAINTY_MEASURE_WITH_UNIT(LENGTH_MEASURE(2.E-5),#586,
'DISTANCE_ACCURACY_VALUE','Maximum Tolerance applied to model');
#581=(
NAMED_UNIT(*)
SI_UNIT($,.STERADIAN.)
SOLID_ANGLE_UNIT()
);
#582=(
CONVERSION_BASED_UNIT('DEGREE',#584)
NAMED_UNIT(#583)
PLANE_ANGLE_UNIT()
);
#583=DIMENSIONAL_EXPONENTS(0.,0.,0.,0.,0.,0.,0.);
#584=PLANE_ANGLE_MEASURE_WITH_UNIT(PLANE_ANGLE_MEASURE(0.0174532925),#585);
#585=(
NAMED_UNIT(*)
PLANE_ANGLE_UNIT()
SI_UNIT($,.RADIAN.)
);
#586=(
LENGTH_UNIT()
NAMED_UNIT(*)
SI_UNIT(.MILLI.,.METRE.)
);
ENDSEC;
END-ISO-10303-21;
